Sunflower Chords & Lyrics Artist:

Chords (click graphic to learn to play)

F#maj7 chord D#m7-5 chord C#maj7 chord Fm7-5 chord
D Sharp minor 7 chord
G#m7-5 chord G#m9 chord C#13 chord F sharp 7 chord Bmaj7 chord Dm chord D sharp minor chord D#m/D chord
20% Off Guitar Tricks Full Access! when you use this link

How To Play

INTRO 0:00-0:48
 
    G#m9         C#13           F#maj7        F#7          Bmaj7
e|---x----x-----x----x-----------x-------------x--9-----------x--------------|
B|---11---11----11---11-12-14----11-11-12-14---11---11-9-7----7--------------|
G|---11---11----10---10----------10------------9--------------8--------------|
D|---9----9-----9----9-----------11------------11-------------8--------------|
A|---11---11----x----x-----------9-------------9--------------x--------------|
E|---x----x-----9----9-----------x-------------x--------------7--------------|
 
     C#13       Dm        D#m          D#m/D       Bmaj7
e|----x---------x----------------------x-------------x-----------------------|
B|----x-11------10--------------11-----11------------7-----------------------|
G|---10----10---10----10-----11----11--11-11----11---8-----------------------|
D|----9---------12-12-----13-----------13----13------8-----------------------|
A|----x---------x---------x------------x-------------x-----------------------|
E|----9---------10--------11-----------10------------7-----------------------|
 
    G#m9         C#13           F#maj7        F#7          Bmaj7
e|---x----x-----x----x-----------x-------------x------------x---x------------|
B|---11---11----11---11-12-14----11-11-12-14---11-11-9-7----7---7------------|
G|---11---11----10---10----------10------------9------------8---8------------|
D|---9----9-----9----9-----------11------------11-----------8---8------------|
A|---11---11----x----x-----------9-------------9------------x---x------------|
E|---x----x-----9----9-----------x-------------x------------7---x------------|
 
    C#13     Dm     D#m
e|----x------x------x-----------------|
B|----x------10-----11----------------|
G|---10------10-----11-11--11---------|
D|----9------12-----13--(13)----------|
A|----x------x------x-----------------|
E|----9------10-----11----------------|
 
 
VERSE 1 0:49
N.C.                  F#maj7
I don't wanna see you cry
                  D#m7-5         C#maj7
You don't have to feel this emptiness
            Fm7-5                     D#m7    D#m7-5
She said I love you till the day that I die
 G#m7-5      F#maj7
Maybe she's right
                    D#m7-5            C#maj7
Cause I don't wanna feel like I'm not me
          Fm7-5                    D#m7
And to be honest I don't even know why
 D#m7-5                         G#m7-5   F#maj7
I let myself get down in the first place
 
 
CHORUS 1 1:20
          D#m7-5           C#maj7
Trying to keep my mind at bay
 Fm7-5                     D#m7
Sunflowers still grows at night
 D#m7-5                                   G#m7-5    F#maj7
Waiting for a minute till the sun's seen through my eyes
        D#m7-5           C#maj7
Make it down down, do-do-down
       Fm7-5          D#m7
Make it do-down, du du du
 D#m7-5                                            F#maj7
Waiting for a minute till the sun's seen through my eyes
 
 
VERSE 2 1:54
F#maj7
You know you need to get yourself to sleep and dream
     D#m7-5         C#maj7
And dream of you and I
           Fm7-5                D#m7
There's no need to keep an open eye
 D#m7-5
I promise I'm the one for you
                    G#m7-5         F#maj7
Just let me hold you in these arms tonight
F#maj7
I'm lucky to be near you
       D#m7-5         C#maj7
You can see it in my face
            Fm7-5                      D#m7
But when I fucked my shit up too many times
           D#m7-5                        G#m7-5   F#maj7
Why would I let myself get down in the first place
 
 
CHORUS 2 2:23
F#maj7     D#m7-5           C#maj7
Trying to keep my mind at bay
 Fm7-5                     D#m7
Sunflowers still grows at night
 D#m7-5                                   G#m7-5    F#maj7
Waiting for a minute till the sun's seen through my eyes
        D#m7-5           C#maj7
Make it down down, do-do-down
       Fm7-5          D#m7
Make it do-down, du du du
 D#m7-5                                            F#maj7
Waiting for a minute till the sun's seen through my eyes
 
 
BRIDGE 2:53-3:21
N.C.
And so she sat me down and told me that I didn't have to cry
N.C.
Said I didn't need to get down and feel empty inside
N.C.
And told me that she love me for as long as she's alive
N.C.
And well, maybe she's right, cause I hate it when I feel like I'm not me
N.C.
See, I honestly, don't even know why
N.C.
I, I honestly don't even know why
 
 
CHORUS 3:40
 F#maj7     D#m7-5           C#maj7
Trying to keep my mind at bay
 Fm7-5                     D#m7
Sunflowers still grows at night
 D#m7-5                                   G#m7-5    F#maj7
Waiting for a minute till the sun's seen through my eyes
        D#m7-5           C#maj7
Make it down down, do-do-down
       Fm7-5          D#m7
Make it do-down, du du du
 D#m7-5                                            F#maj7
Waiting for a minute till the sun's seen through my eyes
 

SEE ALSO: Our List Of Guitar Apps That Don't Suck

Latest Downloads That'll help you become a better guitarist

Your First Six Guitar Songs Cover Download Now
guitar fretboard notes print quality Download Now
Blank Guitar Chord Charts print quality Download Now
Guitar Chord Chart Download Now

Nailed It?

Great job! Let others know you're learning REAL music by sharing on social media!

Save This Song!

Enjoying Sunflower by Rex Orange County? Bookmark the page to make it easier for you to find again!

Press Ctrl+D to bookmark this page

Rex Orange County Fan?

We hope you enjoyed learning how to play Sunflower by Rex Orange County on guitar. Don't stop now! There's loads more songs to learn by at Guvna Guitars!

Comments If you liked this tab or have something to share that'll make playing Sunflower better for others, let us all know in the comments below!

Your email address will not be published. Required fields are marked *

Submit Chords

Have a song you know the chords for that you'd like to share with others? Awesome! Submit it by clicking on the button below