Supremacy Chords & Lyrics Artist:

Chords (click graphic to learn to play)

Am chord E chord Dm chord F chord C chord E6 chord Em chord
20% Off Guitar Tricks Full Access! when you use this link

How To Play

INTRO
 
Am
 
E|-------------------------------------------------------------------------|
B|-------------------------------------------------------------------------|
G|-x-x-x-x--2-2-2-2--x-x-x-x--4-4-4-4--x-x-x-x--5-5-5-5--x-x-x-x--7-7-7-7--|
D|-x-x-x-x-----------------------------------------------------------------|
A|-x-x-x-x--0-0-0-0--x-x-x-x--2-2-2-2--x-x-x-x--3-3-3-3--x-x-x-x--5-5-5-5--|
E|-------------------------------------------------------------------------|
 
Riff:
E|--------------------------------------------|
B|--------------------------------------------|
G|--------------------------------------------|
D|--------------------------------------------|
A|--0--3--0--7--0--8--0--7--0---0-10-11-12----|
E|--------------------------------------------|
 
E|--------------------------------------------|
B|--------------------------------------------|
G|--------------------------------------------|
D|--------------------------------------------| x2
A|--0--3--0--7--0--8--0--7--0--10-11-12-15----|
E|--------------------------------------------|
 
E|--------------------------------------------|
B|--------------------------------------------|
G|--------------------------------------------|
D|--------------------------------------------|
A|--0--3--0--7--0--8--0--7--0---0-10-11-12----|
E|--------------------------------------------|
 
E|-----------------------------------------------------------------|
B|-----------------------------------------------------------------|
G|----14-14-14-14-----16-16-16-16-----17-17-17-17-----19-19-19-19--|
D|-----------------------------------------------------------------|
A|----12-12-12-12-----14-14-14-14-----15-15-15-15-----17-17-17-17--|
E|-----------------------------------------------------------------|
 
E|------------------------|
B|------------------------|
G|-----20-20-20-20-20-20--|
D|------------------------|
A|-----18-18-18-18-18-18--|
E|------------------------|
 
 
 
VERSE
 
Am                                         E
Wake to see , your true emancipation is a fantasy. 
Dm                                       Am
Policies, have risen up and overcome the brave. 
 
 
Am                                            E
Greatness dies, unsung and lost, invisible to history. 
Dm                                              Am
Embedded spies, brainwashing our children to be mean. 
 
F               C
You don't have long, 
     Am      E
I am on to you 
     F            C         E6      E
The time, it has come to destrooooooy... 
 
Your supremacy (Riff)
 
Em
Oooooooooooooooh
 
 
F               C
You don't have long, 
     Am      E
I am on to you 
     F            C         E6      E
The time, it has come to destrooooooy... 
 
Em
 
Yeah, yeah

SEE ALSO: Our List Of Guitar Apps That Don't Suck

Latest Downloads That'll help you become a better guitarist

Your First Six Guitar Songs Cover Download Now
guitar fretboard notes print quality Download Now
Blank Guitar Chord Charts print quality Download Now
Guitar Chord Chart Download Now

Nailed It?

Great job! Let others know you're learning REAL music by sharing on social media!

Save This Song!

Enjoying Supremacy by Muse? Bookmark the page to make it easier for you to find again!

Press Ctrl+D to bookmark this page

Muse Fan?

We hope you enjoyed learning how to play Supremacy by Muse on guitar. Don't stop now! There's loads more songs to learn by at Guvna Guitars!

Comments If you liked this tab or have something to share that'll make playing Supremacy better for others, let us all know in the comments below!

Your email address will not be published. Required fields are marked *

Submit Chords

Have a song you know the chords for that you'd like to share with others? Awesome! Submit it by clicking on the button below