The Sun Is In Your Eyes Chords & Lyrics Artist:

Chords (click graphic to learn to play)

Bm7 chord D chord E7 chord Gadd9 chord Gm6 chord A11 chord G6add9 chord Em11 chord
20% Off Guitar Tricks Full Access! when you use this link

How To Play

Capo: 4th fret

! if you want to play along to the voice memo version published in Jan 2021, put your capo on 3, as it is a
semi-tone lower. The chord structure is a bit simpler there too though, so it will not quite sound the same.
 
the entire song consists of always evolving, glistening arpeggios based on the following 13 chord shapes - sometimes plucked, sometimes hammered-on or pulled-off,
sometimes all strings are used, sometimes not.
 
   D    Em11  Em11add6  Em11add6(2)  F#m#5addb9  Gadd9  G6add9   Bm7   A7sus4add6  A11  A#6add#9   E7   Gm6
d|--0-----0-------0---------0-----------0----------0-------0--------0-------0--------0------0-------0-----0--|
A|--0-----0-------0---------0-----------0----------0-------0--------0-------0--------0------x-------x-----x--|
G|--2-----0-------0---------0-----------0----------0-------0--------x-------0--------0------0-------x-----0--|
E|--2-----3-------0---------3-----------5----------7-------7--------10------0--------9------9-------4-----6--|
A|--0/2---2-------4---------4-----------5----------5-------7--------9-------9--------0------10------x-----7--|
D|--0-----2-------2---------2-----------4----------5-------5--------9-------7--------7------8-------2-----5--|
 
 
 e.g. the first two lines, both on the D chord, are arpeggiated like so (h= hammer on, p= pull off):
d|----------0-----------------0-------------0---|--------------0--------------------------0--------|
A|----------0----------------(0)------------0---|--------------0-------------0---------------------|
G|---------(2)----------------------------------|----------------------------0---------------------|
E|------2------2--p0h2h3------------0h2---------|------0h2-----------0--h3------h3---h2-----2------|
A|----------------------h2-(2)--2---------------|--------------------0h2------h2-------------------|
D|---0------------0---------0------------0------|---0-------------0--------0-------0----0------0---|
 
 
VERSE
 
                   D
The sun is in your eyes
                   D
The sun is in your eyes
             Bm7
Throw me the cold
            A7sus4add6     A11         D
Throw me the cold, cold water of your smile again
                 D
To take me by surprise
                   D
You take me by surprise
             Bm7
Throw me the bold
            A7sus4add6     A11           D
Throw me the bold, bold treasure of your lips again
 
 
CHORUS
 
    Bm7   A7sus4add6 D
And where I -----  go
                          Em11 Em11add6(2) Em11
You lead me in the right direction
                        Gadd9   G6add9  Gadd9
With your love as my protection
                           D
I’ll be a world of your projection
    Bm7   A7sus4add6 D
And where I ----- go
                          Em11  Em11add6  Em11
Singing songs of your affection
     F#m#5addb9        Gadd9   G6add9   Gadd9
With rhymes to your perfection
                   A#6add#9
In my eyes see a reflection
   D
Of you
 
 
OUTRO
 
          E7
I see you clearly now
           Gm6
I hold you dearly now
                  D
The sun is in my eyes
 
************************************

SEE ALSO: Our List Of Guitar Apps That Don't Suck

Latest Downloads That'll help you become a better guitarist

Your First Six Guitar Songs Cover Download Now
guitar fretboard notes print quality Download Now
Blank Guitar Chord Charts print quality Download Now
Guitar Chord Chart Download Now

Nailed It?

Great job! Let others know you're learning REAL music by sharing on social media!

Save This Song!

Enjoying The Sun Is In Your Eyes by Jacob Collier? Bookmark the page to make it easier for you to find again!

Press Ctrl+D to bookmark this page

Jacob Collier Fan?

We hope you enjoyed learning how to play The Sun Is In Your Eyes by Jacob Collier on guitar. Don't stop now! There's loads more songs to learn by at Guvna Guitars!

Comments If you liked this tab or have something to share that'll make playing The Sun Is In Your Eyes better for others, let us all know in the comments below!

Your email address will not be published. Required fields are marked *

Submit Chords

Have a song you know the chords for that you'd like to share with others? Awesome! Submit it by clicking on the button below