The Worst Guys Chords & Lyrics Artist:

Chords (click graphic to learn to play)

D#maj9 chord F9 chord Emaj9 chord F#9 chord
20% Off Guitar Tricks Full Access! when you use this link

How To Play

                         D#maj9
All she needed was some
 
All she needed was some
        F9
All she needed was some
 
All she needed was some... [x4]
 
D#maj9                                   F9
At a Clippers' game on the court-side
 
Watch a n***a' shoot like a .4-5
 
D#maj9                                F9
They mad at me, too, I got more fire
 
When these b*****s see you "go home, Roger" (Go home, Roger)
 
D#maj9                                    F9
Tia and Tamara in my bed I'm a smart guy
 
I ain't f*****g with you n***as like apartheid
 
 
D#maj9                             F9
Hits on my list, check my archive
 
I'm something so immaculate
 
 
D#maj9
Instead of asking what's happenin' rather blastin'
 
F9
Jackson 5 in the back of an Acura, acting blacker
                   D#maj9
Than a Bernie Mac, two Charlie Murphys and Akon
 
    F9                                               (rest)
The girls that you brought man, where are they from?
 
                     D#maj9                  F9
Where are they from? We were playing Playstation
 
                                (rest)      D#maj9
Why you standin' there, say som',  girl say som'
 
                                      F9
No, this ain't a vacation, this is my house, my house
 
HOOK
 
D#maj9               F9
Bought a new bath, 8 K, n***a
 
                      (rest)  D#maj9
Wanna take shots? AK, n***a
                             F9
When I ball, I'mma ball King James, n***a
 
                                          D#maj9
Uncle Ben in my hand, make change, n***a
 
                                     (3x rest)
And I'm out of this world like Tang, n***a
 
                  F9                   D#maj9
That's a space bar, man, I hate y'all
 
                              F9
You only come around when you want to play pool on my hot tub
 
                    D#maj9
Ice cream paint job in the garage
               F9
I had a menage, and murdered the vaj'
                        D#maj9
But, afterwards, it was awkward as f**k
                           F9
Cause I'm nervous as f**k
 
I could not get it up
 
       D#maj9                               F9
I-I-I-I  I need a minute, cold water to the face
 
I-I-I couldn't finish, got the uber from her place
 
      D#maj9                                   F9
On my porch smoking vapor, hit with the Sunday paper
 
Listening to the neighbors...
 
[Hook, but softer underlays of chords]
 
[Hook, no lyrics]
 
 
Solo
eb|-------------------------------------------------------------------------------------------|
Bb|-------------------------------------------------------------------------------------12h-14|
Gb|-------------9h-11b---11brp-9h-9~-------------9h-11b-11b-11b^-11br-11-9h-11---11h-13-------|
Db|-------9h-11---------------------------9h-11-----------------------------------------------|
Ab|-9h-11---------------------------9h-11-----------------------------------------------------|
Eb|-------------------------------------------------------------------------------------------|
 
eb|-12h-14b-14b-14b-14b-14brp-12h-14----------------------------------------------------------|
Bb|------------------------------------17-17\-16-16\-14-14\-12-12\-9-9\-7-7\-5-5\-4-4\--------|
Gb|------------------------------------------------------------------------------------2------|
Db|-------------------------------------------------------------------------------------------|
Ab|-------------------------------------------------------------------------------------------|
Eb|-------------------------------------------------------------------------------------------|
                               *
eb|---------------------------------------------15b-15brp-13h-15----------13h-15-15b-15b------|
Bb|-2p-0-0-------------------------------13h-15--------------------13h-15---------------------|
Gb|--------2-2p-1-1---------------12h-14------------------------------------------------------|
Db|-----------------4p-2h-4p-2~---------------------------------------------------------------|
Ab|-------------------------------------------------------------------------------------------|
Eb|-------------------------------------------------------------------------------------------|
 
eb|-15b-15b-15b-15b^---15br-15-13-15---13p-12-------------------------------------------------|
Bb|-------------------------------------------13--------------------------10-13p10---10-13p10-|
Gb|----------------------------------------------12---------------12b~-12b--------12b---------|
Db|-------------------------------------------------15p-14-12\10------------------------------|
Ab|-------------------------------------------------------------------------------------------|
Eb|-------------------------------------------------------------------------------------------|
 
eb|--------------10---------------------------------------------------------------------------|
Bb|----1013p10-----10---1013p10---1013p10---1013p10---1013p10---1013p10---1013p10-------------|
Gb|-12b-------12b----12b-------12b-------12b-------12b-------12b-------12b-------12b12b12b12b-|
Db|-------------------------------------------------------------------------------------------|
Ab|-------------------------------------------------------------------------------------------|
Eb|-------------------------------------------------------------------------------------------|
 
eb|-------------------------------------------------------------------------------------------|
Bb|-------------------------------------------------------------------------------------------|
Gb|12b12b12b12b12b12b12b12b12b12b12b12b12b12b12b12b12b12b12b12brp-10--------------------------|
Db|------------------------------------------------------------------12~----------------------|
Ab|-------------------------------------------------------------------------------------------|
Eb|-------------------------------------------------------------------------------------------|

SEE ALSO: Our List Of Guitar Apps That Don't Suck

Latest Downloads That'll help you become a better guitarist

Your First Six Guitar Songs Cover Download Now
guitar fretboard notes print quality Download Now
Blank Guitar Chord Charts print quality Download Now
Guitar Chord Chart Download Now

Nailed It?

Great job! Let others know you're learning REAL music by sharing on social media!

Save This Song!

Enjoying The Worst Guys by Childish Gambino? Bookmark the page to make it easier for you to find again!

Press Ctrl+D to bookmark this page

Childish Gambino Fan?

We hope you enjoyed learning how to play The Worst Guys by Childish Gambino on guitar. Don't stop now! There's loads more songs to learn by at Guvna Guitars!

Comments If you liked this tab or have something to share that'll make playing The Worst Guys better for others, let us all know in the comments below!

Your email address will not be published. Required fields are marked *

Submit Chords

Have a song you know the chords for that you'd like to share with others? Awesome! Submit it by clicking on the button below