Topanga Cowgirl Chords & Lyrics Artist:

Chords (click graphic to learn to play)

D chord G chord A chord Bm chord F chord
20% Off Guitar Tricks Full Access! when you use this link

How To Play

    PM------------------
e|--2-----2-----2-----2----|-----0-2-3----2-0--------|
B|--3-----3-----3-----3----|--3----------------------|
G|--2-----2-----2-----2----|-------------------------|
D|--0-----0-----0-----2----|-------------------------|
A|--x-----x-----x-----x----|-------------------------|
E|--x-----x-----x-----x----|-------------------------|
 
If you don't want to do the lick, you can replace it with just D chords, or:
DDDD DDGD
-----------------------
 
INTRO
    PM------------------
e|--2-----2-----2-----2----|-----0-2-3----2-0--------|
B|--3-----3-----3-----3----|--3----------------------|
G|--2-----2-----2-----2----|-------------------------|
D|--0-----0-----0-----2----|-------------------------|
A|--x-----x-----x-----x----|-------------------------|
E|--x-----x-----x-----x----|-------------------------|
 
VERSE 1
 
           D              D
I see her riding, see her riding every day
           G              G
I see her riding, see her riding every day
            A                  Bm         A
Well, she's my Topanga Cowgirl Comes at sunset every day
 
VERSE 2
 
           D                D
Pacific Ocean between the rocks and the sky
           G                             D
Pacific Ocean between the rocks and the sky
    A                 Bm          A                D
And my Topanga Cowgirl waves her hand as she rides by
 
F G D
F G A
 
VERSE 3
             D             D
It's Golden Hour for the shoot-down on the sand
             G             G                 D
It's Golden Hour for the shoot-down on the sand
          A                Bm            A
Yes, and my Topanga Cowgirl   holds the reins in her right hand
 
F G D
F G A
 
D
My Topanga Cowgirl
D
My Topanga Cowgirl
 
 
 
************************************
 
| x   Dead note
| PM  Palm mute
 
 
************************************

SEE ALSO: Our List Of Guitar Apps That Don't Suck

Latest Downloads That'll help you become a better guitarist

Your First Six Guitar Songs Cover Download Now
guitar fretboard notes print quality Download Now
Blank Guitar Chord Charts print quality Download Now
Guitar Chord Chart Download Now

Nailed It?

Great job! Let others know you're learning REAL music by sharing on social media!

Save This Song!

Enjoying Topanga Cowgirl by Mudcrutch? Bookmark the page to make it easier for you to find again!

Press Ctrl+D to bookmark this page

Mudcrutch Fan?

We hope you enjoyed learning how to play Topanga Cowgirl by Mudcrutch on guitar. Don't stop now! There's loads more songs to learn by at Guvna Guitars!

Comments If you liked this tab or have something to share that'll make playing Topanga Cowgirl better for others, let us all know in the comments below!

Your email address will not be published. Required fields are marked *

Submit Chords

Have a song you know the chords for that you'd like to share with others? Awesome! Submit it by clicking on the button below