Triad Chords & Lyrics Artist:

Chords (click graphic to learn to play)

A chord Em chord Em7 chord Cmaj7 chord A9 chord Fm# chord
20% Off Guitar Tricks Full Access! when you use this link

How To Play

INTRO
Guitar 1
e|----------------------|-------------0--------|
B|-------------3--------|-------------0--------|
G|-------------0--------|----------------------|
D|----------------------|----------------------|x12
A|-------2--------------|-------2--------------|
E|-0--------------------|-0--------------------|
 
One guitar playing this through the whole intro and verses
 
Guitar 2
e|----------------------|----------------------|----------------------|----------------------|
B|---6pbr5br6---3~------|---6pbr5br6---3~------|---6pbr5br6---3~------|---6pbr5br6---3-------|
G|----------------------|----------------------|----------------------|------------------6---|
D|----------------------|----------------------|----------------------|----------------------|
A|----------------------|----------------------|----------------------|----------------------|
E|----------------------|----------------------|----------------------|----------------------|
 
e|----------------------|----------------------|----------------------|----------------------|
B|----------------------|----------------------|----------------------|----------------------|
G|-4--2----7--7--4--7---|-7--7--7--7--4--9--7--|-7--6--6h7p6/4--4-----|------4/2/1\2\4-------|
D|------4---------------|----------------------|----------------------|----------------------|
A|----------------------|----------------------|----------------------|----------------------|
E|----------------------|----------------------|----------------------|----------------------|
 
e|----------------------|----------------------|----------------------|----------------------|
B|----------------------|----------------------|----------------------|----------------------|
G|------4/2/1\2\4-------|------4/2/1\2\4-------|------4/2/1\2\4-------|-4-4-4-4-4-4-4-4-4-4-4|
D|----------------------|----------------------|----------------------|----------------------|
A|----------------------|----------------------|----------------------|----------------------|
E|----------------------|----------------------|----------------------|----------------------|
 
e|----------------------|-0---0---0---0---0---0|-0---0---0---0---0---0|
B|----------------------|---0---0---0---0---0--|---0---0---0---0---0--|
G|-4-4-4-4-4-4-4-4-4-4-4|----------------------|----------------------|
D|----------------------|----------------------|----------------------|
A|----------------------|----------------------|----------------------|
E|----------------------|----------------------|----------------------|
 
VERSE
Em   Em7
e|--0-----------0-------|
B|--0-----------3-------|
G|--0-----------0-------|
D|--2-----------0-------|
A|--2-----------2-------|
E|--0-----------0-------|
 
Em     Em7     Em
       You want to know how it will be
      Em7   Em
   Me and him or you and me
 
CHORUS
Fm#        Cmaj7
    You both stand there your long hair flowing
Fm#   Cmaj7
    Eyes alive your mind still growing
Fm#                                        A
   Saying to me: "What can we do now that we both love you?",
      A9
   I love you too
  A
   I don't really see
                       Em
   Why can't we go on as three 
 
VERSE
Em  Em7      Em
       You are afraid embarrassed too
      Em7            Em
   No one has ever said such a thing to you
 
CHORUS
Fm#          Cmaj7
   Your mother's ghost stands at your shoulder
Fm#    Cmaj7
   Face like ice a little bit colder
 Fm#
   Saying to you: "You can not do that, it breaks
        A       A9
   All the rules you learned in school"
   A
   I don't really see
                      Em
   Why can't we go on as three
 
VERSE
Em       Em7       Em
       We love each other it's plain to see
                Em7        Em
       There's just one answer comes to me
 
CHORUS
Fm#  Cmaj7
   Sister lovers, water brothers
 Fm#       Cmaj7
   And in time maybe others
Fm#                                   A
   So you see: What we can do is to try something new
           A9
   If you're crazy too
  A
   I don't really see
                      Em
   Why can't we go on as three.
 
OUTRO
Em Em7 Em Em7 Em Em7
 
***********************************
 
| /   Slide up
| \   Slide down
| h   Hammer-on
| p   Pull-off
| ~   Vibrato
| br  Bend release
| pbr Pre-bend release
 
***********************************

SEE ALSO: Our List Of Guitar Apps That Don't Suck

Latest Downloads That'll help you become a better guitarist

Your First Six Guitar Songs Cover Download Now
guitar fretboard notes print quality Download Now
Blank Guitar Chord Charts print quality Download Now
Guitar Chord Chart Download Now

Nailed It?

Great job! Let others know you're learning REAL music by sharing on social media!

Save This Song!

Enjoying Triad by Jefferson Airplane? Bookmark the page to make it easier for you to find again!

Press Ctrl+D to bookmark this page

Jefferson Airplane Fan?

We hope you enjoyed learning how to play Triad by Jefferson Airplane on guitar. Don't stop now! There's loads more songs to learn by at Guvna Guitars!

Comments If you liked this tab or have something to share that'll make playing Triad better for others, let us all know in the comments below!

Your email address will not be published. Required fields are marked *

Submit Chords

Have a song you know the chords for that you'd like to share with others? Awesome! Submit it by clicking on the button below