Wait For Me Acoustic Chords & Lyrics Artist:

Chords (click graphic to learn to play)

F chord G chord C chord Am chord
20% Off Guitar Tricks Full Access! when you use this link

How To Play

Capo:2nd fret

VERSE 1
 
e|---------------------------------------------------------------|
B|-----0--0--0--------0--0--0-------0--0--0-------0--0--0h1------|
G|---------------------------------------------------------------|
D|---2--2--2--2-----2--2--2--2----2--2--2--2----2--2--2----------|
A|-0--------------3----------------------------------------------|
E|------------------------------3-------------3------------------|
 
e|---------------------------------------------------------------|
B|-----0--0--0-------0--0--0------0--0--0-------0--0--0h1--------|
G|---------------------------------------------------------------|
D|---2--2--2--2----2--2--2--2---2--2--2--2----2--2--2------------|
A|---------------------------------------------------------------|
E|-1-------------1-------------3------------3--------------------|x3
 
e|---------------------------------------------------------------|
B|-----0--0--0-------0--0--0------0--0--0-------0--0--0h1--------|
G|---------------------------------------------------------------|
D|---2--2--2--2----2--2--2--2---2--2--2--2----2--2--2------------|
A|---------------------------------------------------------------|
E|-1-------------1-------------3------------3--------------------|x1
 
 
CHORUS
  F           G
Wait for me now?
  C             F
Take off this crown
 F                   G
To break all these vows
            Am
Don't you know?
 F          G
Wait for me now
  C            F
Air's running out
  Am
Wait for me, wait for me
  F
Wait for me, wait for me now
 
 
VERSE 2
 
e|---------------------------------------------------------------|
B|-----0--0--0--------0--0--0-------0--0--0-------0--0--0h1------|
G|---------------------------------------------------------------|
D|---2--2--2--2-----2--2--2--2----2--2--2--2----2--2--2----------|
A|-0--------------3----------------------------------------------|
E|------------------------------3-------------3------------------|
 
e|---------------------------------------------------------------|
B|-----0--0--0-------0--0--0------0--0--0-------0--0--0h1--------|
G|---------------------------------------------------------------|
D|---2--2--2--2----2--2--2--2---2--2--2--2----2--2--2------------|
A|---------------------------------------------------------------|
E|-1-------------1-------------3------------3--------------------|x3
 
e|---------------------------------------------------------------|
B|-----0--0--0-------0--0--0------0--0--0-------0--0--0h1--------|
G|---------------------------------------------------------------|
D|---2--2--2--2----2--2--2--2---2--2--2--2----2--2--2------------|
A|---------------------------------------------------------------|
E|-1-------------1-------------3------------3--------------------|x1
 
 
CHORUS
  F           G
Wait for me now?
  C             F
Take off this crown
     F               G
To break all these vows
            Am
Don't you know?
  F          G
Wait for me now
  C            F
Air's running out
  Am
Wait for me, wait for me
  F
Wait for me, wait for me now
 
 
VERSE 3
    Am                  G
A lost dream of what could have been
     C                 F
A house on fire, a tangled web
     Am            G                    F
The key turns to find the locks have changed
    Am                G
In time to hear the back door slam
     C                 F
A sound that to this day I can't forget
      Am        G              F
The colors drained to black and gray
 
Oh...
 
 
CHORUS
  F           G
Wait for me now?
  C             F
Take off this crown
     F               G
To break all these vows
            Am
Don't you know?
  F          G
Wait for me now
  C            F
Air's running out
  Am
Wait for me, wait for me
  F
Wait for me, wait for me now

SEE ALSO: Our List Of Guitar Apps That Don't Suck

Latest Downloads That'll help you become a better guitarist

Your First Six Guitar Songs Cover Download Now
guitar fretboard notes print quality Download Now
Blank Guitar Chord Charts print quality Download Now
Guitar Chord Chart Download Now

Nailed It?

Great job! Let others know you're learning REAL music by sharing on social media!

Save This Song!

Enjoying Wait For Me Acoustic by Rise Against? Bookmark the page to make it easier for you to find again!

Press Ctrl+D to bookmark this page

Rise Against Fan?

We hope you enjoyed learning how to play Wait For Me Acoustic by Rise Against on guitar. Don't stop now! There's loads more songs to learn by at Guvna Guitars!

Comments If you liked this tab or have something to share that'll make playing Wait For Me Acoustic better for others, let us all know in the comments below!

Your email address will not be published. Required fields are marked *

Submit Chords

Have a song you know the chords for that you'd like to share with others? Awesome! Submit it by clicking on the button below