Where The White Boys Dance Chords & Lyrics Artist:

Chords (click graphic to learn to play)

Em chord Bm chord G chord D/F# chord D chord Am chord Dadd9 chord C chord
20% Off Guitar Tricks Full Access! when you use this link

How To Play

CHORUS 1
eb|-------------------------------------------------12----|
Bb|----12-15-12------12------------12-15-12------12-------|
Gb|-14------------14----14-12---14------------14-------12-| X2
Db|-------------------------------------------------------|
Ab|-------------------------------------------------------|
Eb|-------------------------------------------------------| 
 
eb|-15-15-15/-|
Bb|-----------|
Gb|-----------|
Db|-----------|
Ab|-----------|
Eb|-----------|
 
N.C
Take me to the place where the white boys dance.
Take me to the place where they run and play.
My baby is gone, you might have a chance.
Just take me to the place where the white boys dance.
 
[LINK 1]
|:Em         |Em          |Em          |Em         :|
 
VERSE 1
Bm                   G                  Bm                       Em
 They hug in silence,  as the sun sets,   on their empty street, 
            G                    D/F#   Em     D
Their sus - picions well they're rising high
    Am                                      Dadd9    D Bm
And the man who sweeps them off she doesn't need 
                      G                     Bm                        Em
She walks inside and,   pours a strong one,     put her mind at ease. 
         G                D/F#  Em      D
It's the calm before an - other storm. 
        Am                                   Dadd9   D
And the brain shifts from the whiskey to the keys. 
 
CHORUS 2
Em
Take me to the place where the white boys dance 
 
Take me to the place where they run and play
 
My baby is gone, you might have a chance
                                               N.C
Just take me to the place where the white boys dance
 
VERSE 2
Bm                    G                                Bm
 Her heart is racing,   she phones a friend and says: 
                 Em
"I'm in an awful place 
     G                   D/F#     Em   D
That fool’s been messin' round on me 
     Am                             Dadd9   D Bm
I've seen it in his eyes and on his face"
                  G                         Bm
Hold on a minute,   you're talking crazy,
                      Em
Don't be that jealous girl
     G              D/F#    Em            D
Just tell Levon you need an hour or two,
       Am                                      Dadd9  D
'Cause we're gonna go and change somebody's world. 
 
CHORUS 3
Em
Take me to the place where the white boys dance 
 
Take me to the place where they run and play
 
My baby is gone, you might have a chance
                                               N.C
Just take me to the place where the white boys dance
 
[SOLO TAB]
eb|-------------------------------------------------12----|
Bb|----12-15-12------12------------12-15-12------12-------|
Gb|-14------------14----14-12---14------------14-------12-| X2
Db|-------------------------------------------------------|
Ab|-------------------------------------------------------|
Eb|-------------------------------------------------------| 
 
[SOLO CHORDS]
|G           |Am          |Em          |D          |
|G           |Am          |Em          |D          |
 
[BRIDGE TAB]
eb|-------------------------------------------------12----|
Bb|----12-15-12------12------------12-15-12------12-------|
Gb|-14------------14----14-12---14------------14-------12-| X2
Db|-------------------------------------------------------|
Ab|-------------------------------------------------------|
Eb|-------------------------------------------------------| 
 
eb|-15-15-15/-|
Bb|-----------|
Gb|-----------|
Db|-----------|
Ab|-----------|
Eb|-----------|
 
[BRIDGE CHORDS]
         G                   Am     Em D
It's the calm before another storm
         Em                  D
It's the calm before another storm 
        C                                    Bm
And the brain shifts from the whiskey to the keys. 
 
CHORUS 4
Em
Take me to the place where the white boys dance 
 
Take me to the place where they run and play
 
My baby is gone, you might have a chance
                                               N.C
Just take me to the place where the white boys dance

SEE ALSO: Our List Of Guitar Apps That Don't Suck

Latest Downloads That'll help you become a better guitarist

Your First Six Guitar Songs Cover Download Now
guitar fretboard notes print quality Download Now
Blank Guitar Chord Charts print quality Download Now
Guitar Chord Chart Download Now

Nailed It?

Great job! Let others know you're learning REAL music by sharing on social media!

Save This Song!

Enjoying Where The White Boys Dance by The Killers? Bookmark the page to make it easier for you to find again!

Press Ctrl+D to bookmark this page

The Killers Fan?

We hope you enjoyed learning how to play Where The White Boys Dance by The Killers on guitar. Don't stop now! There's loads more songs to learn by at Guvna Guitars!

Comments If you liked this tab or have something to share that'll make playing Where The White Boys Dance better for others, let us all know in the comments below!

Your email address will not be published. Required fields are marked *

Submit Chords

Have a song you know the chords for that you'd like to share with others? Awesome! Submit it by clicking on the button below