Wide Eyes Acoustic Chords & Lyrics Artist:

Chords (click graphic to learn to play)

Em chord G chord C chord D5 chord Dadd11 chord
20% Off Guitar Tricks Full Access! when you use this link

How To Play

Capo:2nd fret

[Chords]
Em     0x200x
G      3x000x
C      x3201x
D5     xx023x
Dadd11 x5403x
G*     3x0003
 
INTRO
   Em          G             C           G             Em          G             C           G
e|-------------------------|-------------------------|-------------------------|-------------------------|
B|---0-----0-----0-----0---|---0-----0-----0-----0---|---0-----0-----0-----0---|---0-----0-----0-----0---|
G|-----0-----0-----0-----0-|-----0-----0-----0-----0-|-----0-----0-----0-----0-|-----0-----0-----0-----0-|
D|-2-----4-----5-----0-----|-------------------0-----|-2-----4-----5-----12----|-10----10----9-----9-----|
A|-------------------------|-3-----2p0---------------|-------------------------|-------------------------|
E|-------------------------|-------------3-----------|-------------------------|-------------------------|
   1 - - 2 - - 3 - - 4 - -   1 - - 2 - - 3 - - 4 - -   1 - - 2 - - 3 - - 4 - -   1 - - 2 - - 3 - - 4 - -
 
   Em          G             C           G             C           G             D5          G
e|-------------------------|-------------------------|-------------------------|-------------------------|
B|---0-----0-----0-----0---|---0-----0-----0-----0---|---1-----1-----0-----0---|---3-----3-----0-----0---|
G|-----0-----0-----0-----0-|-----0-----0-----0-----0-|-----0-----0-----0-----0-|-----2-----2-----0-----0-|
D|-2-----4-----5-----0-----|-------------------0-----|-------2-----------0-----|-0-----0-----------0-----|
A|-------------------------|-3-----2p0---------------|-3-----------------------|-------------------------|
E|-------------------------|-------------3-----------|-------------3-----------|-------------3-----------|
   1 - - 2 - - 3 - - 4 - -   1 - - 2 - - 3 - - 4 - -   1 - - 2 - - 3 - - 4 - -   1 - - 2 - - 3 - - 4 - -
   C           G             D5          G                   C     G                   D5    G
e|-------------------------|-------------------------|-------------------------|-------------------------|
B|---1-----1-----0-----0---|---3-----3-----0-----0---|---0-----1-----0-----0---|---0-----3-----0-----0---|
G|-----0-----0-----0-----0-|-----2-----2-----0-----0-|-----0-----0-----0-----0-|-----0-----2-----0-----0-|
D|-------2-----------0-----|-0-----0-----------0-----|-0-----------------0-----|-0-----0-----------0-----|
A|-3-----------------------|-------------------------|-------3-----------------|-------------------------|
E|-------------3-----------|-------------3-----------|-------------3-----------|-------------3-----------|
   1 - - 2 - - 3 - - 4 - -   1 - - 2 - - 3 - - 4 - -   1 - - 2 - - 3 - - 4 - -   1 - - 2 - - 3 - - 4 - -
 
         C     G                        (Em)
e|-------------------------|-------------------------|
B|---0-----1-----0-----0---|---0-----0-----0-----0---|
G|-----0-----0-----0-----0-|-----0-----0-----0-----0-|
D|-0-----------------0-----|-0-----0-----------2-----|
A|-------3-----------------|-------------------------|
E|-------------3-----------|-------------0-----------|
   1 - - 2 - - 3 - - 4 - -   1 - - 2 - - 3 - - 4 - -
 
 
INTRO
Em  G   C    G  x3
C   G   D5   G  x2
  C G     D5 G
  C G        Em
 
VERSE 1
     Em       G     C        G
Well I've not seen Alaskan white
Em       G       C      G
I've not seen Tokyo by night
Em       G         C             G
I've not seen the northern lights
    C      G         D5           G
But I have seen your wide eyes tonight
 
 
INSTRUMENTAL
G   C G   D5 G   C G
 
 
VERSE 2
    Em       G        C         G
And I've not done all I coulda done
    Em     G           C             G
And I have walked when I could've run
    Em     G        C             G
And I have lost all I could've won
    Em        G      Dadd11         G     C  G
But your wide eyes reflect and move on
 
 
INSTRUMENTAL 2
   Em          G             C           G             Em          G             C           G
e|-------------------------|-------------------------|-------------------------|-------------------------|
B|---0-----0-----0-----0---|---0-----0-----0-----0---|---0-----0-----0-----0---|---0-----0-----0-----0---|
G|-----0-----0-----0-----0-|-----0-----0-----0-----0-|-----0-----0-----0-----0-|-----0-----0-----0-----0-|
D|-2-----4-----5-----0-----|-------------------0-----|-2-----4-----5-----12----|-10----10----9-----9-----|
A|-------------------------|-3-----2p0---------------|-------------------------|-------------------------|
E|-------------------------|-------------3-----------|-------------------------|-------------------------|
   1 - - 2 - - 3 - - 4 - -   1 - - 2 - - 3 - - 4 - -   1 - - 2 - - 3 - - 4 - -   1 - - 2 - - 3 - - 4 - -
 
   Em          G             C           G             C           G             D5          G
e|-------------------------|-------------------------|-------------------------|-------------------------|
B|---0-----0-----0-----0---|---0-----0-----0-----0---|---1-----1-----0-----0---|---3-----3-----0-----0---|
G|-----0-----0-----0-----0-|-----0-----0-----0-----0-|-----0-----0-----0-----0-|-----2-----2-----0-----0-|
D|-2-----4-----5-----0-----|-------------------0-----|-------2-----------0-----|-0-----0-----------0-----|
A|-------------------------|-3-----2p0---------------|-3-----------------------|-------------------------|
E|-------------------------|-------------3-----------|-------------3-----------|-------------3-----------|
   1 - - 2 - - 3 - - 4 - -   1 - - 2 - - 3 - - 4 - -   1 - - 2 - - 3 - - 4 - -   1 - - 2 - - 3 - - 4 - -
   C           G             D5          G                   C     G                   D5    G
e|-------------------------|-------------------------|-------------------------|-------------------------|
B|---1-----1-----0-----0---|---3-----3-----0-----0---|---0-----1-----0-----0---|---0-----3-----0-----0---|
G|-----0-----0-----0-----0-|-----2-----2-----0-----0-|-----0-----0-----0-----0-|-----0-----2-----0-----0-|
D|-------2-----------0-----|-0-----0-----------0-----|-0-----------------0-----|-0-----0-----------0-----|
A|-3-----------------------|-------------------------|-------3-----------------|-------------------------|
E|-------------3-----------|-------------3-----------|-------------3-----------|-------------3-----------|
   1 - - 2 - - 3 - - 4 - -   1 - - 2 - - 3 - - 4 - -   1 - - 2 - - 3 - - 4 - -   1 - - 2 - - 3 - - 4 - -
 
         C     G                        (Em)
e|-------------------------|-------------------------|
B|---0-----1-----0-----0---|---0-----0-----0-----0---|
G|-----0-----0-----0-----0-|-----0-----0-----0-----0-|
D|-0-----------------0-----|-0-----0-----------2-----|
A|-------3-----------------|-------------------------|
E|-------------3-----------|-------------0-----------|
   1 - - 2 - - 3 - - 4 - -   1 - - 2 - - 3 - - 4 - -
 
 
VERSE 3
      Em     G       C           G
Well, I have found a hole in my coat
Em     G        C            G
I have found a lump in my throat
Em     G              C       G
I have laughed at all my own jokes, but
Em        G              D5        G       C  G
Your wide eyes are like water to a boat
 
 
VERSE 4
    Em      G     C            G
And I have never packed my case
Em          G         C             G
  Gone underground or out into space
    Em      G           C             G
But when my gaze rests heavy on your face, well
Em        G          D5          G
Your wide eyes are my favorite place, well yeah
Em        G          D5         (G)
Your wide eyes are my favorite place
 
 
OUTRO
G   C G   D5 G   C G D5 G*

SEE ALSO: Our List Of Guitar Apps That Don't Suck

Latest Downloads That'll help you become a better guitarist

Your First Six Guitar Songs Cover Download Now
guitar fretboard notes print quality Download Now
Blank Guitar Chord Charts print quality Download Now
Guitar Chord Chart Download Now

Nailed It?

Great job! Let others know you're learning REAL music by sharing on social media!

Save This Song!

Enjoying Wide Eyes Acoustic by Passenger? Bookmark the page to make it easier for you to find again!

Press Ctrl+D to bookmark this page

Passenger Fan?

We hope you enjoyed learning how to play Wide Eyes Acoustic by Passenger on guitar. Don't stop now! There's loads more songs to learn by at Guvna Guitars!

Comments If you liked this tab or have something to share that'll make playing Wide Eyes Acoustic better for others, let us all know in the comments below!

Your email address will not be published. Required fields are marked *

Submit Chords

Have a song you know the chords for that you'd like to share with others? Awesome! Submit it by clicking on the button below