Wild West End (Acoustic) Chords & Lyrics Artist:

Chords (click graphic to learn to play)

Dsus4 chord G chord G6 chord Am11 chord Em7#5 chord
20% Off Guitar Tricks Full Access! when you use this link

How To Play

Capo: 7th fret

INTRO
 
D|-0-----0--0--0----0--0--0----0--0--0--0-|-0----0--0--0----0--0--0----0--0--0--0-|
B|-3/5---5--5--5----3--3--3----3--0--0--0-|-1----1--1--1----1--1--1----1--1--1--1-|
G|-2/4---4--4--4----2--2--2----2--0--4--4-|-0----0--0--0----0--0--0----0--0--0--0-|
D|-0-----0--0--0----0--0--0----0--0--0--0-|-2----2--2--2----2--2--2----2--2--2--2-| x4
G|-0-----0--0--0----0--0--0----0--0--0--0-|-2----2--2--2----0--0--0----0--0--0--0-|
D|----------------------------------------|---------------------------------------|
 
 
VERSE 1
G6              Dsus4    G   Am11   Em7#5
Stepping out to Angellucci's for my coffee beans
G6               Dsus4  G       Am11   Em7#5
Checking out the movies and the magazines
G6           Dsus4   G  Am11                 Em7#5
Waitress she watches me crossing from the Barocco Bar
G6         Dsus4  G  Am11   Em7#5
I'm getting a pickup for my steel guitar
G6        N.C.                        Em7#5
I saw you walking out Shaftesbury Avenue
G6            Dsus4   G       Am11   Em7#5
Excuse me for talking I wanna marry you
G6          Dsus4          G
This is the seventh heaven street to me
Am11        Em7#5
Don't be so proud
G6     Dsus4        G     Am11     Em7#5
You're just another angel in the crowd
 
CHORUS
        G6      Dsus4  G          Am11  Em7#5
And I'm walking in the wild west end
        G6      Dsus4  G          Am11  Em7#5
Walking with your wild best friend
 
Chrous ends with this sequence:
D|-----0---------------------------------------------------------------------|
B|----3-3--------1-----0-----------------------------------------------------|
G|---2---2------0-----0----0------2--2--2/4----------------------------------|
D|--3-----3----2-----0-----0------3--3--3/5----------------------------------|
G|-2-------2--0-----3------0------0--0--0------------------------------------|
D|---------------------------------------------------------------------------|
 
VERSE 2
       G6                 Dsus4  G
And my conductress on the number nineteen
          Am11  Em7#5
She was a honey
G6      Dsus4     G         Am11  Em7#5
Pink toenails and hands all dirty with money
G6            Dsus4   G   Am11  Em7#5
Greasy greasy greasy hair easy smile
G6               Dsus4  G Am11  Em7#5
She made me feel nineteen for a while
G6         Dsus4  G
I went down
Am11  Em7#5
to Chinatown
G6      Dsus4       G
In the backroom it's a man's world
Am11    Em7#5
All the money go down
G6              Dsus4  G
Duck inside the doorway
Am11  Em7#5
gotta duck to eat
G6               Dsus4  G
Right now feels alright now
Am11       Em7#5
You and me we can't beat
 
CHORUS
        G6      Dsus4  G          Am11  Em7#5
And I'm walking in the wild west end  x2
        G6      Dsus4  G          Am11  Em7#5
Walking with your wild best friend
 
Same as above, chrous ends with...
D|-----0---------------------------------------------------------------------|
B|----3-3--------1-----0-----------------------------------------------------|
G|---2---2------0-----0----0------2--2--2/4----------------------------------|
D|--3-----3----2-----0-----0------3--3--3/5----------------------------------|
G|-2-------2--0-----3------0------0--0--0------------------------------------|
D|---------------------------------------------------------------------------|
 
VERSE 3
G6         Dsus4   G    Am11  Em7#5
And a gogo dancing girl yes I saw her
G6     Dsus4  G   Am11   Em7#5
The deejay he say here's Mandy for ya
G6             Dsus4  G
I feel alright
Am11       Em7#5
to see her do that stuff
G6        Dsus4      G
She's dancing high I move on by
    Am11      Em7#5
The close ups can get rough
 
CHORUS
        G6      Dsus4  G          Am11  Em7#5
And I'm walking in the wild west end
        G6      Dsus4  G          Am11  Em7#5
Walking with your wild best friend
 
Same as above, chrous ends with...
D|-----0---------------------------------------------------------------------|
B|----3-3--------1-----0-----------------------------------------------------|
G|---2---2------0-----0----0------2--2--2/4----------------------------------|
D|--3-----3----2-----0-----0------3--3--3/5----------------------------------|
G|-2-------2--0-----3------0------0--0--0------------------------------------|
D|---------------------------------------------------------------------------|
 
************************************
| /   Slide up
************************************

SEE ALSO: Our List Of Guitar Apps That Don't Suck

Latest Downloads That'll help you become a better guitarist

Your First Six Guitar Songs Cover Download Now
guitar fretboard notes print quality Download Now
Blank Guitar Chord Charts print quality Download Now
Guitar Chord Chart Download Now

Nailed It?

Great job! Let others know you're learning REAL music by sharing on social media!

Save This Song!

Enjoying Wild West End (Acoustic) by Dire Straits? Bookmark the page to make it easier for you to find again!

Press Ctrl+D to bookmark this page

Dire Straits Fan?

We hope you enjoyed learning how to play Wild West End (Acoustic) by Dire Straits on guitar. Don't stop now! There's loads more songs to learn by at Guvna Guitars!

Comments If you liked this tab or have something to share that'll make playing Wild West End (Acoustic) better for others, let us all know in the comments below!

Your email address will not be published. Required fields are marked *

Submit Chords

Have a song you know the chords for that you'd like to share with others? Awesome! Submit it by clicking on the button below