Windy Town Chords & Lyrics Artist:

Chords (click graphic to learn to play)

Bbm chord Db chord Ab chord Fm chord Gb chord Am chord C chord G chord Em chord F chord
20% Off Guitar Tricks Full Access! when you use this link

How To Play

INTRO:
 
(MANDOLIN)
 
E ----------------10-------------|
B 10-12--10-12-13----12-10-------|
G -------------------------12-12-|
D -------------------------------|
A -------------------------------|
E -------------------------------|
 
E ---------------------|-----------------------|
B -10-12-13-12-10---10-|--10-12-13-12-10----10-|
G ----------------12---|-----------------12----|
D ---------------------|-----------------------|
A ---------------------|-----------------------|
E ---------------------|-----------------------|
 
E ----------10-------------|
B -10-12-13----12-10-------|
G -------------------12-12-|
D -------------------------|
A -------------------------|
E -------------------------|
 
E ---------------------|-----------------------|-----------------------|
B -10-12-13-12-10---10-|--10-12-13-12-10----10-|--10-12-13-12-10----10-|
G ----------------12---|-----------------12----|-----------------12----|
D ---------------------|-----------------------|-----------------------|
A ---------------------|-----------------------|-----------------------|
E ---------------------|-----------------------|-----------------------|
 
 
- PIANO ENTERS -
 
Bbm  Db  Ab  Fm  Gb      Bbm  Db  Ab  Fm  Gb
 
 
VERSE
Bbm      Db
Driving down
         Ab
From the Highland Line
Fm
We'd done some gigs
        Gb
On the Clyde of the Tyne
 
Bbm          Db
They flew us in
        Ab
From a Hamburg strip
Fm
The taste of Dusseldorf
      Gb            Bbm  Db  Ab  Fm  Gb
Still on our lips
 
 
VERSE
Bbm        Db
And on the bus
            Ab
There's a friend of mine
Fm
We go way back
        Gb
To the scene of the crime
 
Bbm     Db
Sit up front
            Ab
And share a cigarette
    Fm
And try to remember
         Gb
What we tried to forget
 
 
BREAK
         Bbm
He said, "do you remember"
          Gb             Ab
He said, "do you recall"
Fm       Bbm
I said, "Yeah I remember
        Gb              Ab  Fm
Oh I remember it all"
 
 
CHORUS
 Bbm           Ab        Fm
Everytime the cold wind blows
Gb           Ab        Fm
 Everytime I hear the sound
Bbm
Late night trains
         Ab          Fm
Shuntin' down by the river
Gb           Ab    Fm    Bbm
 I remember Windy Town
 
 
VERSE
Bbm           Db
We've come so far
        Ab
And we moved so fast
Fm
Makin' haste
       Gb
See it all grow past
 
Bbm        Db
Round the world
      Ab
And around again
Fm
Up and down
         Gb
On that gravy train
 
 
CHORUS
 Bbm          Ab         Fm
Everytime the cold wind blows
Gb           Ab        Fm
 Everytime I hear the sound
Bbm
East coast crosswinds
        Ab       Fm
On the cold wet stone
Gb           Ab    Fm    Bbm
 I remember Windy Town
 
 
INSTRUMENTAL
Bbm  Fm  Gb  Ab  Fm      Bbm  Fm  Gb
 
Ab             Fm    Bbm
  I've seen it all before
 
Bbm  Db  Bbm  Gb  Ab  Bbm  Bbm  Gb
 
 
VERSE
Bbm           Db
The freezing corners
        Ab
And the empty streets
Fm
The burning passion
         Gb
And the cold wet feet
 
 Bbm          Db        Ab
Three tricky miles home every night
 Fm
Dodging from the shadows
      Gb                  Gb
Underneath the overlights
 
 
VERSE
Bbm         Db
No car for kissin'
    Ab
And nowhere to go
 Fm
'Cept inside each other
       Gb
And I love you so
 
Bbm          Db
I held your face
        Ab
As you shivered in the rain
 Fm
Girl, I'll always love you 
          Gb
And I'll love you again
 
Oh everytime, yeah everytime
 
 
CHORUS
 Bbm           Ab        Fm
Everytime the cold wind blows
Gb           Ab        Fm
 Everytime I hear the sound
Bbm
Late night trains
          Ab         Fm
Shuntin' down by the river
Gb           Ab    Fm
 I remember Windy Town
 
 
CHORUS
 Bbm          Ab         Fm
Everytime the cold wind blows
Gb           Ab        Fm
 Everytime I hear the sound
Bbm
East coast crosswinds
        Ab       Fm
On the cold wet stone
Gb           Ab   Fm    Bbm
 I remember, I remember Windy Town
          Gb   Ab  Fm  Bbm
There it goes, 
 Bbm      Gb   Ab
There it goes
Fm     Gb
Windy Town
 
 
================= CAPO 1st FRET ==================
 

CAPO 1st FRET
 
INTRO
 
(MANDOLIN)
 
E ----------------9------------|
B -9-11--9-11-12----11-9-------|
G -----------------------11-11-|
D -----------------------------|
A -----------------------------|
E -----------------------------|
 
E -------------------|--------------------|
B -9-11-12-11-9----9-|--9-11-12-11-9----9-|
G --------------11---|---------------11---|
D -------------------|--------------------|
A -------------------|--------------------|
E -------------------|--------------------|
 
E ---------9------------|
B -9-11-12---11-9-------|
G ----------------11-11-|
D ----------------------|
A ----------------------|
E ----------------------|
 
E -------------------|--------------------|--------------------|
B -9-11-12-11-9----9-|--9-11-12-11-9----9-|--9-11-12-11-9----9-|
G --------------11---|---------------11---|---------------11---|
D -------------------|--------------------|--------------------|
A -------------------|--------------------|--------------------|
E -------------------|--------------------|--------------------|
 
 
- PIANO ENTERS -
 
Am   C   G   Em  F       Am   C   G   Em  F
 
 
VERSE
Am       C
Driving down
         G
From the Highland Line
Em
We'd done some gigs
        F
On the Clyde of the Tyne
 
Am           C
They flew us in
        G
From a Hamburg strip
Em
The taste of Dusseldorf
      F             Am   C   G   Em  F
Still on our lips
 
 
VERSE
Am         C
And on the bus
            G
There's a friend of mine
Em
We go way back
        F
To the scene of the crime
 
Am      C
Sit up front
            G
And share a cigarette
    Em
And try to remember
         F
What we tried to forget
 
 
BREAK
         Am
He said, "do you remember"
          F              G
He said, "do you recall"
Em       Am
I said, "Yeah I remember
        F               G   Em
Oh I remember it all"
 
 
CHORUS
 Am            G         Em
Everytime the cold wind blows
F            G         Em
 Everytime I hear the sound
Am
Late night trains
         G           Em
Shuntin' down by the river
F            G     Em    Am
 I remember Windy Town
 
 
VERSE
Am            C
We've come so far
        G
And we moved so fast
Em
Makin' haste
       F
See it all grow past
 
Am         C
Round the world
      G
And around again
Em
Up and down
         F
On that gravy train
 
 
CHORUS
 Am           G          Em
Everytime the cold wind blows
F            G         Em
 Everytime I hear the sound
Am
East coast crosswinds
        G        Em
On the cold wet stone
F            G     Em    Am
 I remember Windy Town
 
 
INSTRUMENTAL
Am   Em  F   G   Em      Am   Em  F
 
G              Em    Am
  I've seen it all before
 
Am   C   Am   F   G   Am   Am   F
 
 
VERSE
Am            C
The freezing corners
        G
And the empty streets
Em
The burning passion
         F
And the cold wet feet
 
 Am           C         G
Three tricky miles home every night
 Em
Dodging from the shadows
      F                   F
Underneath the overlights
 
 
VERSE
Am          C
No car for kissin'
    G
And nowhere to go
 Em
'Cept inside each other
       F
And I love you so
 
Am           C
I held your face
        G
As you shivered in the rain
 Em
Girl, I'll always love you 
          F
And I'll love you again
 
Oh everytime, yeah everytime
 
 
CHORUS
 Am            G         Em
Everytime the cold wind blows
F            G         Em
 Everytime I hear the sound
Am
Late night trains
          G          Em
Shuntin' down by the river
F            G     Em
 I remember Windy Town
 
 
CHORUS
 Am           G          Em
Everytime the cold wind blows
F            G         Em
 Everytime I hear the sound
Am
East coast crosswinds
        G        Em
On the cold wet stone
F            G    Em    Am
 I remember, I remember Windy Town
          F    G   Em  Am
There it goes, 
 Am       F    G
There it goes
Em     F
Windy Town

SEE ALSO: Our List Of Guitar Apps That Don't Suck

Latest Downloads That'll help you become a better guitarist

Your First Six Guitar Songs Cover Download Now
guitar fretboard notes print quality Download Now
Blank Guitar Chord Charts print quality Download Now
Guitar Chord Chart Download Now

Nailed It?

Great job! Let others know you're learning REAL music by sharing on social media!

Save This Song!

Enjoying Windy Town by Rod Stewart? Bookmark the page to make it easier for you to find again!

Press Ctrl+D to bookmark this page

Rod Stewart Fan?

We hope you enjoyed learning how to play Windy Town by Rod Stewart on guitar. Don't stop now! There's loads more songs to learn by at Guvna Guitars!

Comments If you liked this tab or have something to share that'll make playing Windy Town better for others, let us all know in the comments below!

Your email address will not be published. Required fields are marked *

Submit Chords

Have a song you know the chords for that you'd like to share with others? Awesome! Submit it by clicking on the button below