Xmas Curtain Chords & Lyrics Artist:

Chords (click graphic to learn to play)

E chord F sharp minor chord A chord B chord G sharp minor chord
20% Off Guitar Tricks Full Access! when you use this link

How To Play

Intro riff:
   E         E          E          E          E          E          E          E
e|-0---------0----------0----------0----------0----------0----------0----------0-----------|
B|-0-5-0-4-0-0--5-0-4-0-0--5-0-4-0-0--5-0-4-0-0--5-0-4/9-0--5-0-4-0-0--5-0-4/9-0--5-0-4-0--|
G|-1-4-4-4-1-1--4-4-4-1-1--4-4-4-1-1--4-4-4-1-1--4-4-4/9-1--4-4-4-1-1--4-4-4/9-1--4-4-4-1--|
D|-2---------2----------2----------2----------2----------2----------2----------2-----------|
A|-2---------2----------2----------2----------2----------2----------2----------2-----------|
E|-0---------0----------0----------0----------0----------0----------0----------0-----------|
 
   E         E          E          E          E          E          E          E
e|-0---------0----------0----------0----------0----------0----------0----------0-----------|
B|-0-5-0-4-0-0--5-0-4-0-0--5-0-4-0-0--5-0-4-0-0--5-0-4/9-0--5-0-4-0-0--5-0-4/9-0--5-0-4/21-|
G|-1-4-4-4-1-1--4-4-4-1-1--4-4-4-1-1--4-4-4-1-1--4-4-4/9-1--4-4-4-1-1--4-4-4/9-1--4-4-4/21-|
D|-2---------2----------2----------2----------2----------2----------2----------2-----------|
A|-2---------2----------2----------2----------2----------2----------2----------2-----------|
E|-0---------0----------0----------0----------0----------0----------0----------0-----------|
 
 
Interlude melody:
 
   E                          F#m
e|----------12-------------|----------9-------------|
B|-------12----12----------|-------10---10----------|
G|----13----------13----13-|----11---------11----11-|
D|-14----------------14----|-11---------------11----|
A|-------------------------|------------------------|
E|-------------------------|------------------------|
 
 
INTRO
E x16
 
A B
A B
 
[Verse One]
E                 G#m
Hey the Christmas curtain falls on lawbreakers 
    F#m              A
Who pave the way for thoughtless folks like  
B            E
Me and J who pay 
          G#m
But can't afford the finer things in life, 
         F#m
So we heist them all 
     A         B                  E
The criminals who never break the law
 
SOLO
E G#m F#m A B
E G#m F#m A B
 
INTERLUDE
E F#m
E F#m E
 
SOLO
E G#m F#m A B
E G#m F#m A B
 
[Verse Two]
E              G#m
So, to all you frowns go down to town square and 
F#m                       A                   B                 E
Get some action, from the Christmas girl that lives inside your womb
             G#m
She's always there I think that I'm certain,
    F#m                             A       B  A
You pay to get behind her Christmas curtain
           B                              E
You're the criminal that never breaks the law
 
OUTRO
E G#m F#m A B
E G#m F#m A B E

SEE ALSO: Our List Of Guitar Apps That Don't Suck

Latest Downloads That'll help you become a better guitarist

Your First Six Guitar Songs Cover Download Now
guitar fretboard notes print quality Download Now
Blank Guitar Chord Charts print quality Download Now
Guitar Chord Chart Download Now

Nailed It?

Great job! Let others know you're learning REAL music by sharing on social media!

Save This Song!

Enjoying Xmas Curtain by My Morning Jacket? Bookmark the page to make it easier for you to find again!

Press Ctrl+D to bookmark this page

My Morning Jacket Fan?

We hope you enjoyed learning how to play Xmas Curtain by My Morning Jacket on guitar. Don't stop now! There's loads more songs to learn by at Guvna Guitars!

Comments If you liked this tab or have something to share that'll make playing Xmas Curtain better for others, let us all know in the comments below!

Your email address will not be published. Required fields are marked *

Submit Chords

Have a song you know the chords for that you'd like to share with others? Awesome! Submit it by clicking on the button below